Moritz Krämer – Mitbewohnerin

Ab und zu werde ich hier auch Gitarrentabs reinstellen. Die Spielweisen zu den Liedern habe ich dann im Internet so nicht gefunden, und selbst aufgeschrieben. Da darf der Herr Krämer dann den Anfang machen, viel Spaß!

Spielschnipsel

Vers1

E|----10------------8--------------------------------------
H|--------10-----8-----------6-----------------6-----------
G|------------------------------5-----5-----------5-----5--
D|--8---------7-----------7--------6--------7--------6-----
A|---------------------5-----------------5-----------------
E|---------------------------------------------------------

Refrain

E|--1--0--0--
H|--3--1--1--
G|--2--0--0--
D|--3--2--2--
A|--1--0--3--
E|--1--------

A#maj7; Am7; C

Vers2

E|--0--0--0--1---
H|--1--1--1--1---
G|--2--0--0--2---
D|--3--2--1--2---
A|-----------1---
E|-----------1---

Fmaj7; Am7, Cm; Fmaj11

Ablauf

Vers1 x7
Refrain x4
Vers1 x6
Refrain x4
Vers2 x6
Vers1 x2

Songtext

Mitbewohnerin von einem Freund
deine Gestalt auf diesem Sofa
die hab ich nicht vergessen
mit der weißen Mütze siehst du fröhlich aus
als schütze sie dich vor dem Fernseher
der dich beschießt und du scheißt darauf

Und ich weiß
dass ich dich gerne mag
Ich denk an dich und grinse, immer wenn ich Fahrrad fahre
das was wir hier unter uns besprechen
muss unter uns ein Geheimnis sein

Mitbewohnerin von einem Freund
wenn ich morgens kam
standst du oft, blass,
in Unterhosen
zwischen Krümeln und vergaßt zu grüßen
weil der Toast dir soviel Mühe macht

ich weiß, dass ich dich gerne mag
ich denke an dich und grinse, immer wenn ich Fahrrad fahre
das was wir hier unter uns besprechen
muss unter uns ein Geheimnis sein

deine Haare kleben oft am Honig
dein Scham linst hervor
einmal warst du oben nackig
so dass ich meinen Blick verlor
Mitbewohnerin von deinem Freund
von deinem Freund

Mit dem Busen und den Haaren
mit der Mütze und dem Scham
ist es noch lange lange lange nicht getan
ich seh so oft in deine Augen
wenn ich an Ampeln stehen muss
schrecklich große und rot entzündet
grün wie Wiesen oder leer
oder leer
oder leer
Leah
Tschüss leah
Hallo leah
Leah
Leah

Ich weiß, dass ich dich gerne mag
und ich denke an dich und grinse, immer wenn ich Fahrrad fahre.

Dieser Tab als .txt

11 Kommentare Schreibe einen Kommentar

Schreibe einen Kommentar


(required)

siebzehn − fünfzehn =