Gisbert zu Knyphausen – Melancholie

Auf besonderen Wunsch von Thomas gibt es heute einen Tab zu Gisberts ‚Melancholie‘.

Gitarren-Tab

Kapodaster auf die 1!

Intro & Vers:

   Cm            Cm9         Am
E|-------3-------------3-1-0-------0-------0-------0-------0-
H|-----------------------------------------------------------
G|-----0---0---0-----0-----------2-------2-------2-------2---
D|---2-------2-----0-----------2-------2-------2-------2-----
A|-3-------------2-----------0-------0-------0-------0-------
E|-----------------------------------------------------------

       Cm            Cm9         Am
E|-----------3-------------3-1-0-------0-------0-------0-------0-
H|---------------------------------------------------------------
G|---------0---0---0-----0-----------2-------2-------2-------2---
D|-0h2---2-------2-----0-----------2-------2-------2-------2-----
A|-----3-------------2-----------0-------0-------0-------0-------
E|---------------------------------------------------------------

Refrain

   Cm      Cm9     Am
E|---------------------------------
H|-------1-------1-------1-------1-
G|-----0-------0-------2-------2---
D|---2-------0-------2-------2-----
A|-3-------2-------0-------0-------
E|---------------------------------

Songtext

Wo immer ich auch bin - Du bist bei mir.
Stehst da, so selbstverliebt und arrogant und
grinst mich an.
Voller Genugtuung streust du eine handvoll
Zweifel in mein kleines Glück.
Ach bitte nimm sie zurück,
Melancholie,
nimm sie zurück.

Was hast du der Menschheit jemals Gutes gebracht?
Außer Musik und Kunst und billigen Gedichten?
Hast du darüber schonmal nachgedacht?
Ach so klappt das nie,
Melancholie,
so klappt das nie.

Du weißt ja,
eigentlich mag ich dich
sehr gerne,
Wenn du nur ab
und zu mal deine Fresse halten würdest.
Aber du zerredest mich solange,
bis ich nicht mehr weiß,
wo ich bin und was ich will.
Komm sei endlich still,
Melancholie,
sei endlich still.

Was hast du der Menschheit jemals Gutes gebracht?
Außer Musik und Kunst und billigen Gedichten?
Hast du darüber schonmal nachgedacht?
Ach fick dich ins Knie
Melancholie,
du kriegst mich nie klein.
Fick dich ins knie,
Melancholie,
du kriegst mich nie klein.

16 Kommentare Schreibe einen Kommentar

Schreibe einen Kommentar


(required)

1 × 3 =