Tomte – Nichts ist so schön, wie betrunken traurige Musik zu hören

Und hier der nächste Gitarrentab. Viel Spaß!

Zupfmuster Intro:

  Am                          Fmaj                      
E|-------------------------------------------------------
H|-------1-----1-----1--------------1-----1-----1--------
G|---2-----2-----2-----2--------2-----2-----2-----2------
D|-2---2-----2-----2-----0h2--3---3-----3-----3-----0h3--
A|-------------------------------------------------------
E|-------------------------------------------------------

  Fmaj*                       Am
E|-------------------------------------------------------------
H|----------1------1-----1-------------------------------------
G|-2----2-----2------2-----2---2---------2------2-----2--------
D|----4---4-----4------4-----4------2------2------2-----2---2--
A|--------------------------------0---0------0------0-----0----
E|-------------------------------------------------------------

Das ganze Lied

Am Fmaj Fmaj* Am (x2)

Am                Fmaj                         Fmaj*            Am
Das war ein gutes Jahr und wer jetzt glücklich ist wird es lange sein

        Am                   Fmaj                     Fmaj*
Und die Frau'auf die du dich beziehst strahlt wie ein Stern
              Am
und hält alles ein

    Am                               Fmaj
Die Korrekturen sind gemacht und wie heißt es so schön
    Fmaj*                        Am
ein neuer Tag ersteht und ich bin wach

  Am Am* (x4)
E|----1--
H|-1--1--
G|-2--2--
D|-2--2--
A|-------
E|-------

G  Dsus2 Am

    Am                     Fmaj
Ich habe eine Ahnung, dass du an mich glaubst

Fmaj*                        Am
Wenn es blutet können wir es heilen

    Am                     Fmaj  Fmaj*          Am
Und plötzlich denkst du an alles auf der ganzen Welt

Am                  Fmaj
Und es kommt dir so vor dass es dir alles in allem

Fmaj*        Am
mehr als gut gefällt

  Am Am* (x4)
E|----1--
H|-1--1--
G|-2--2--
D|-2--2--
A|-------
E|-------

G Dsus2 Am C Dsus2 Am G

E|------------------------------------------
H|------------------------------------------
G|-14--10--11--12--13---14--10--11--12--13--
D|------------------------------------------
A|-12---8---9--10--11---12---8---9--10--11--
E|------------------------------------------

   Am Am** D* Fmaj E
E|----------------------------------------
H|-1--1----3--1-------------------------------
G|-2-------2--2----1---------------------
D|-2--2-------3----2----------------------
A|-----------------2----------------------
E|----3----2------------------------------
(x4)

E|------------------------------------------
H|------------------------------------------
G|-14--10--11--12--13---14--10--11--12--13--
D|------------------------------------------
A|-12---8---9--10--11---12---8---9--10--11--
E|------------------------------------------

    Am     Am**  D*                 Fmaj E        Am Am** D* Fmaj E
Wir machen klar, wie das hier endet und wie alles wird

    Am      Am** D*       Fmaj E         Am 
Und alles was du brauchst findest du bei mir

              Am**          D*       Fmaj
Nichts ist so schön auf der Welt wie betrunken traurige Musik zu hören!

E|------------------------------------------
H|------------------------------------------
G|-14--10--11--12--13---14--10--11--12--13--
D|------------------------------------------
A|-12---8---9--10--11---12---8---9--10--11--
E|------------------------------------------

    Am     Am**  D*                 Fmaj E        Am Am** D* Fmaj E
Wir machen klar, wie das hier endet und wie alles wird

    Am      Am** D*       Fmaj E         Am 
Und alles was du brauchst findest du bei mir

Aufhören mit: Am Am** D* Fmaj E

Die restlichen Akkorde

   G  Dsus2 E C
E|-3--0-----0-0--
H|-2--3-----0-1--
G|-0--2-----1-0--
D|-0--0-----2-2--
A|-3--x-----2-3--
E|-3--x-----0-x--

Der Riff (danke Axel!)

E|----------------------------------------
B|---------5------------5-----------------
G|-----5----------7-----------5--7--5-----
D|-7-----------------------------------7--
A|----------------------------------------
E|----------------------------------------

E|----------------------------------------
B|---------5---------5-----8--5-----------
G|-----5---------7---------------5--7--5--
D|-7--------------------------------------
A|----------------------------------------
E|----------------------------------------

 

7 Kommentare Schreibe einen Kommentar

Schreibe einen Kommentar


(required)

drei × 5 =