Gisbert zu Knyphausen – Grau, grau, grau [unvollständig]

Mit dem letzten Stück des Lieds (ab 2:46) komme ich gerade nicht so recht weiter. Vielleicht weiß jemand von euch weiter?

Intro & Strophe

E|------------7-----------------7---------7-
H|-------8------------8-------8---------8---
G|-10-10---10---10-10---10-10-----10-10-----
D|------------------------------------------
A|------------------------------------------
E|------------------------------------------ (2x)

E|-----------7-------------7-------7-
H|------8----------8-----8-------8---
G|--9-9----9---9-9---9-9-----9-9-----
D|-----------------------------------
A|-----------------------------------
E|----------------------------------- (2x)

Akkorde dazu (für die Strophe später)

   Fmaj Em
E|---------
H|-1-------
G|-2-------
D|-3----2--
A|------2--
E|---------

Refrain

   C Cm B A7 G#7
E|---4--1----3---
H|-1-2--3-2--4---
G|---5--3----5---
D|-2-5--3-2--6---
A|-3-4--1----x---
E|---4--1----4---

Songtext & Tab

          Fmaj
Bevor das grau, grau, grau,
Bevor das grau, grau, grau
          Em
sich hier festbeißt
und sich langsam
            Fmaj
durch meine Adern schiebt,
durch meine Adern drängt
              En
und sich dort festbeißt,
will ich einmal noch am Ufer stehen und
     Fmaj (ab hier Akkorde)
dann schauen, wohin die Schiffe fahren,
schauen wohin sie fahren
                 Em
und ob mich eins mitnimmt
in den Süden oder irgendwohin.

C                 Cm                                   
  Wo mich niemand sieht,
             B                              
mich niemand hört,
                 A7
und mich niemand fragt:
                G#7
Wie solls jetzt weitergehen?
Das weiß ich doch auch nicht.
Das weiß ich doch auch nicht.

Graue Häuser,
graue Straßen überall.
Ihr könnt mich mal.
Graue Menschen, graues Licht,
graue Gedanken, graues Ich.
Ich will das nicht mehr.
Ich wollte da immer drüber stehen,
und jetzt steh ich mittendrin, na sowas.
Und ich dreh mich im Kreis und singe
über das ewige Licht,
die Blitze ins Nichts
und die gleißende Frage:
Wie solls jetzt weitergehen?
Das weiß ich doch auch nicht.
Das weiß ich doch auch nicht.

[Solo/Breakdown-Teil wird nachgeliefert!!]

Wir brauchen einen neuen Anfang. (8x)

Schreibe einen Kommentar


(required)