Gisbert zu Knyphausen – Flugangst

Ein weiteres – sehr schönes – Lied von Gisbert, mal nicht in herkömmlicher Tab-Form, sondern ein wenig zusammengemixt. Bei Fragen oder Unklarheiten einfach melden!

Spielschnipsel

Intro/Outro

E|---0-----0-----0-----0-----0------
H|-----0-----0-----0-----0-----0----
G|-------5-----5-----5-----5-----5--
D|-7--------------------------------
A|----------------------------------
E|----------------------------------

E|---0-----0-----0-----0-----0------
H|-----0-----0-----0-----0-----0----
G|-------5-----5-----5-----5-----5--
D|-6--------------------------------
A|----------------------------------
E|----------------------------------

E|---0-----0-----0-----0-----0------
H|-----0-----0-----0-----0-----0----
G|-------5-----5-----5-----5-----5--
D|---------------------------------
A|-3--------------------------------
E|----------------------------------

E|---0-----0-----0-----0-----0------
H|-----4-----4-----4-----4-----4----
G|-------7-----7-----7-----7-----7--
D|----------------------------------
A|----------------------------------
E|-0--------------------------------

Vers1

   Am C7 C  D9 G
E|----------------
H|-1--1--1--3--3--
G|-2--0--0--2--0--
D|-2--2--2--0--0--
A|-0--2--3--0--2--
E|----------2--3--

Vers2

   Am G  Dm F  G
E|-------1--1-----
H|-1--3--3--2--3--
G|-2-----2--3-----
D|-2--------4-----
A|----2-----4--2--
E|----3-----1--3--

Vers2 2. Stimme

E|-----0-------0-------0-----------0---------7------
H|---3---3---3---3---6---6-----6-----6---8-----8----
G|-5-------4-------7-------7-5---5-----0---0-----0--
D|--------------------------------------------------
A|--------------------------------------------------
E|--------------------------------------------------

Vers1 2. Stimme

E|-5-7-8-7--
H|----------
G|----------
D|----------
A|----------
E|----------

bzw.

E|-------5-----7-----8-----------7-----7-----7------
H|---5-----5-----5-----5-----7-----7-----8-----8----
G|-5---5-----5-----5-----5-7---7-----7-----7-----7--
D|--------------------------------------------------
A|--------------------------------------------------
E|--------------------------------------------------

bzw.

E|-5-7-8-7-7--
H|-5-5-5-7-8--
G|-5-5-5-7-7--
D|------------
A|------------
E|------------

Bridge

E|----------
H|----------
G|---8-5-4--
D|-7-8-5-4--
A|-7-6-3-2--
E|-5--------

Ablauf des Liedes:

Intro x2
Vers1 x2
Einsatz Gesang, Vers1 x4
Vers2/+2.Stimme x2
Vers1/+2.Stimme x6
Vers2/+2.Stimme x2
Bridge x3
Vers2/+2.Stimme x2
Outro x2

Songtext

ich und die leidenschaft
was für eine ungewohnte kombination
ich weis auch nicht so genau wie das passieren konnte
aber hier
steht auf einmal ein sprungbrett
was für eine merkwürdige situation
soll ich jetzt springen oder was?

und ich stehe auf und renne los und stoße blind gegen die immer gleichen fragen
die kleinen teufel meiner angst sind immer bei mir
schießen mir pfeile in den magen
in meinem kopf die melodien aus 1000 jahren
sie zermürben meine phantasie
und da vorne schon der brett und dann der abgrund
und ich singe jetzt oder nie
jetzt oder nie nie nie nie nie
oder nie

ich und die schwerkraft
was für eine nervenaufreibende kombination
ach, wenn das geradestehen nicht schon so anstrengend wär
manchmal weis ich nicht mehr wo oben und unten ist
aber das hat eine ungeheure faszination
und ich glaube so rum, ja so rum bin ich richtig

und kann mir einer mal verraten wieso wir sind wie wir sind in diesen tagen?
unsere ohren empfangen alles in reinform
und ich hör dich noch sagen klar und deutlich
durch die straßen fegen wir den kalten wind
wie kinder ihre phantasie
und wir atmen die musik
so gut wie heute gings uns selten oder vielleicht nies
vielleicht auch nie
vielleicht auch nie
nie nie nie

vielleicht auch nie
und ich trag den schmierigen stempel der stadt auf der stirn
und es dauert nicht mehr lange
und er brennt sich mir ins hirn
und statt haaren wachsen mir wundervolle flausen aus dem kopf

und die gehn so

4 Kommentare Schreibe einen Kommentar

  1. Moin,
    ich wollt ma danke sagen für die Tabs. Ich hab die schon lange gesucht. Bin dir echt dankbar.

    mfg

    Dennis

    P.S.: In einigen Videos kann man erkennen das Gisbert andere Tabs benutzt. Klingt aber beides gleich. Danke

  2. Hey!
    mega-gute tabs ;)

    ich glaube aber, dass im vers statt Am, Am7 gespielt wird ;)

    @Dennis
    gisbert spielt das lied gar nicht so anders… im intro greift er zum beispiel anstatt dem dritten bund auf der A-saite, den achten Bund auf der E-saite, das sieht dann nur anders aus ;)

Schreibe einen Kommentar


(required)

4 × 5 =