Clueso – Barfuss

Für Barfuss finden sich im Netz viele Tabs, die mitunter ziemlich daneben liegen. Ich habe mich heute mal mit dem Lied beschäftigt und ein wenig mit Live-Videos und anderen Tabs kombiniert. Herausgekommen ist eine ziemlich gut spielbare Version.

Das Tuning sieht auf den ersten Blick abenteuerlich aus. In Worten: Alle Saiten einen Halbton runter bis auf die 3., die bleibt auf G.
Falls ihr kein vernünftiges Stimmgerät habt könnt ihr mit dem Kapodaster tricksen: Kapo auf die 1, Standardtuning stimmen (aber die G3 nicht anrühren!), Kapo abnehmen und ein wenig nachstimmen. Viel Spaß!

Spielschnipsel

Intro

Eb|--------0---------------0-----------
Bb|--4--------4---4--4--------4-----4--
 G|-----0---------------0--------------
Db|------------------------------------
Ab|--2----------2----2-----------2-----
Eb|------------------------------------

Eb|--------0-----------------0-----------------0-----------
Bb|--5--------5-----5--------------------------------------
 G|-----0-----------------0-----0-----0-----0-----0-----0--
Db|--------------------------------------------------------
Ab|--4-----------4-----0-----------0-----0-----------------
Eb|--------------------------------------------------0-----

Eb|--------0---------------0-----------------0-----------0--
Bb|--4--------4---4--5--------5-----5--------------------0--
 G|-----0---------------0-----------------0-----0-----0--0--
Db|------------------------------------------------------X--
Ab|--2----------2----4-----------4-----0-----------0-----X--
Eb|------------------------------------------------------0--

Vers

Eb|--0--0--0--
Bb|--5--7--9--
 G|--0--0--0--
Db|--6--8--9--
Ab|--4--6--7--
Eb|-----------
3x, vor Refrain 2x.

Endteil
Eb|----------
Bb|----------
 G|----------
Db|--7--(7)--
Ab|--7--(7)--
Eb|--5--(2)--

Refrain

Eb|-----------------
Bb|-----------------
 G|--9--10----------
Db|--9--11--7--(9)--
Ab|--9--11--7--(9)--
Eb|--7---9--5--(7)--

Bridge

Eb|--0--0--0--0--0--
Bb|--5--0--0--0--0--
 G|--0--0--0--0--0--
Db|--6--9--7--4--2--
Ab|--4--9--7--4--2--
Eb|-----7--5--2--0--

Ablauf des Liedes:

Intro
Vers
Vers (ohne Klammern)
Vers
Refrain (am Ende 577— halten)
Refrain
Vers
Bridge
Refrain

Songtext

hier und da komm ich auf die idee
einen andern weg zu gehen
mal verspielt und mal gefasst
manchmal macht mir der nase nach
einfach das unbeholfene spaß

beweg mich gerne meinem kreis
doch jeder noch so kleine teich
sollte verbunden sein zum meer
immer wenn ich was neues ausprobier‘
lauf ich wie barfuß über glas

doch ich fühl mich federleicht
weil es sich fast immer lohnt
und so erscheint das nichts so bleibt wie’s ist
fast schon wie gewohnt

wenn mich das neue dann berührt
tanz ich zuerst für mich allein
dann mach ich all die and’ren wach
doch immer wenn was neu beginnt
sagt auch etwas in mir „das war’s“

doch ich fühl mich federleicht
weil es sich fast immer lohnt
und so erscheint das nichts so bleibt wie es ist
fast schon wie gewohnt

2 Kommentare Schreibe einen Kommentar

  1. Wow, cool, dass jemand sich mal die zeit nimmt, dass einzutragen! Danke! Hast du auch die Tabs für „Keinen Zentimeter“?

Schreibe einen Kommentar


(required)

3 × 3 =