Moped Rixe Baujahr 1967

Artikelbild für den Rixe-Baubericht

Mein Vater hat in jungen Jahren mal eine Rixe RS50 Baujahr 1967 gefahren. Als nach intensiver Nutzung eine Überholung anstand, wurde diese lediglich vorbereitet, die Rixe nach einem Anfall von Lustlosigkeit im Keller eingelagert.
Das Moped ist ein echtes Original meiner Heimatstadt, die Bielefelder Mopedfabrik Rixe produzierte seit 1922 im Ortsteil Brake schicke Zweiräder, zumeist mit Sachs-Motoren.
Dreiundzwanzig Jahre nach der Einlagerung umfasst mein Führerschein für begleitetes Fahren mit 17 auch die Klasse M. Damit ich auch unbegleitet unterwegs sein kann, wird die Rixe wieder ausgemottet und fit gemacht. An dieser Stelle möchte ich den Wiederaufbau dieses kleinen Stücks Geschichte dokumentieren.

Das Moped nach der Restauration

Weiterlesen

Maikäfertreffen 2012 / Hannover

Hier mal ein Video über luftgekühlte VW, zumeist Käfer oder Busse. Es kommt von meinem Bruder Jasper und fasst das Maikäfertreffen 2012 in ca. 3 Minuten zusammen. Auf dem Messegelände in Hannover waren unzählige (tolle!) Autos da und das Wetter hat auch mitgespielt. Aber seht selbst:

Gefilmt haben wir gemeinsam und dabei das erste mal die frisch gekaufte GoPro Hero2 HD Kamera eingesetzt. Das Material dieser kleinen Kamera ist klasse, die Aufnahmen gehen im Video nahtlos in Szenen aus Jaspers DSLR über, ohne dass es auffällt.

Gisbert zu Knyphausen – Melancholie

Auf besonderen Wunsch von Thomas gibt es heute einen Tab zu Gisberts ‚Melancholie‘.

Gitarren-Tab

Kapodaster auf die 1!

Intro & Vers:

   Cm            Cm9         Am
E|-------3-------------3-1-0-------0-------0-------0-------0-
H|-----------------------------------------------------------
G|-----0---0---0-----0-----------2-------2-------2-------2---
D|---2-------2-----0-----------2-------2-------2-------2-----
A|-3-------------2-----------0-------0-------0-------0-------
E|-----------------------------------------------------------

Weiterlesen

Gisbert zu Knyphausen – Grau, grau, grau [unvollständig]

Mit dem letzten Stück des Lieds (ab 2:46) komme ich gerade nicht so recht weiter. Vielleicht weiß jemand von euch weiter?

Intro & Strophe

E|------------7-----------------7---------7-
H|-------8------------8-------8---------8---
G|-10-10---10---10-10---10-10-----10-10-----
D|------------------------------------------
A|------------------------------------------
E|------------------------------------------ (2x)

Weiterlesen

Foals – Spanish Sahara

Dieses wirklich atemberaubend gute erste Lied des in den nächsten Tagen erscheinenden Albums von Foals ist recht einfach aufgebaut, das Endprodukt ist aber ziemlich umwerfend. Beim Mitspielen lässt das Ganze, besonders im Schlussteil nach dem Solo, viele eigene Interpretationen/Variationen zu. Viel Spaß damit!
Weiterlesen

Patrick Watson – Wooden Arms

In diesem wunderbaren Lied wiederholen sich die vier Akkorde die ganze Zeit. Hier also einfach das Picking:

         Bm           A6          C7          Fm
E|---------------------------------------------------------
H|----------3-3---3-3---2-2---2-2---6-6---6-6---2-2---2-2--
G|----------4-4---4-4---2-2---2-2---4-4---4-4---2-2---2-2--
D|----------4-4---4-4---4-4---4-4---6-6---6-6---4-4---4-4--
A|--------2-----2-----0-----0------------------------------
E|--2-4-5-------------------------4-----4-----2-----2------

Weiterlesen

Clueso – Barfuss

Für Barfuss finden sich im Netz viele Tabs, die mitunter ziemlich daneben liegen. Ich habe mich heute mal mit dem Lied beschäftigt und ein wenig mit Live-Videos und anderen Tabs kombiniert. Herausgekommen ist eine ziemlich gut spielbare Version.

Das Tuning sieht auf den ersten Blick abenteuerlich aus. In Worten: Alle Saiten einen Halbton runter bis auf die 3., die bleibt auf G.
Falls ihr kein vernünftiges Stimmgerät habt könnt ihr mit dem Kapodaster tricksen: Kapo auf die 1, Standardtuning stimmen (aber die G3 nicht anrühren!), Kapo abnehmen und ein wenig nachstimmen. Viel Spaß!

Spielschnipsel

Intro

Eb|--------0---------------0-----------
Bb|--4--------4---4--4--------4-----4--
 G|-----0---------------0--------------
Db|------------------------------------
Ab|--2----------2----2-----------2-----
Eb|------------------------------------

Weiterlesen

Paramore – Misguided Ghosts

Eine sehr schöne Nummer von Paramore. Am Lied sind insgesamt etwa 3 Gitarren beteiligt, dieser Tab konzentriert sich größtenteils auf die, die auf den linken Kanal gelegt ist. Viel Spaß!

Spielschnipsel

Vers

E|------------------------
H|------------------------
G|------2----------2------
D|-h2-----2----0-----0----
A|----3-----3----3-----3--
E|-1-----------1---------- x2, dann:

Weiterlesen

Gisbert zu Knyphausen – Flugangst

Ein weiteres – sehr schönes – Lied von Gisbert, mal nicht in herkömmlicher Tab-Form, sondern ein wenig zusammengemixt. Bei Fragen oder Unklarheiten einfach melden!

Spielschnipsel

Intro/Outro

E|---0-----0-----0-----0-----0------
H|-----0-----0-----0-----0-----0----
G|-------5-----5-----5-----5-----5--
D|-7--------------------------------
A|----------------------------------
E|----------------------------------

Weiterlesen

Gisbert zu Knyphausen – Wer du bist

Wunderschönes Cover von Gisbert zu Knyphausen. Das Original ist von Daantje And The Golden Handwerk.

Zupfmuster Intro & Vers1:

   Am7     C       Em
E|----------------------------------
H|-----1-------1-------0-------0----
G|----------------------------------
D|---2---2---2---2---2---2---2---2--
A|-0-------3---------------2--------
E|-----------------0----------------

Weiterlesen

Tomte – Nichts ist so schön, wie betrunken traurige Musik zu hören

Und hier der nächste Gitarrentab. Viel Spaß!

Zupfmuster Intro:

  Am                          Fmaj                      
E|-------------------------------------------------------
H|-------1-----1-----1--------------1-----1-----1--------
G|---2-----2-----2-----2--------2-----2-----2-----2------
D|-2---2-----2-----2-----0h2--3---3-----3-----3-----0h3--
A|-------------------------------------------------------
E|-------------------------------------------------------

Weiterlesen

Moritz Krämer – Mitbewohnerin

Ab und zu werde ich hier auch Gitarrentabs reinstellen. Die Spielweisen zu den Liedern habe ich dann im Internet so nicht gefunden, und selbst aufgeschrieben. Da darf der Herr Krämer dann den Anfang machen, viel Spaß!

Spielschnipsel

Vers1

E|----10------------8--------------------------------------
H|--------10-----8-----------6-----------------6-----------
G|------------------------------5-----5-----------5-----5--
D|--8---------7-----------7--------6--------7--------6-----
A|---------------------5-----------------5-----------------
E|---------------------------------------------------------

Weiterlesen